пятница, 21 августа 2015 г.

Как играть BJM - Cause I Love Her


Каподастр на третьем (3) ладу.

Чтобы эта песня звучала как задумано, вам нужно перевести все струны на пол тона вверх (именно вверх, не вниз!)
Интро:
e-0-0-0-0-0--0-0---|
B-2-2-0-0-3--3-3---|
G-2-2-2-2-2--2-2---|
D-2-2-2-2-2--2-2---|   x4
A-0-0-0-0-0--0-0---|
E-0-0-0-0-0--0-0---|

Аккорд D:
e-2-2--22-3-2-2--3-3-2-2-0-0----|
B-3-3--33-3-3-3--3-3-3-3-3-3----|
G-2-2--22-2-2-2--2-2-2-2-2-2----|
D-0-0--00-0-0-0--0-0-0-0-0-0----|
A-------------------------------|
E-------------------------------|

D
She said i love you
     Am               C
and i know it cant be wrong
          Am             C
cause ive waited for so long
           G      C    G
ive waited for you

D
he says "oh"....
    Am                      C
girl you best run for your life
 Am                      C
cause i'll never take a wife
Am                       C
i live along with all my strife,
   G   C   G
im unrepented

D
and i said i love you
        Am                C
all the tears that i have cried
       Am                C
many years aftere theyve dried
       Am                 C
i will be there by your side because
  G        C  G
i love her
C    G C    G
yes i do, you?